86  
E|------0-2-----5-2---------0---------0-2------|
B|-2-3-3-3-3-------3-----2--2---2-3-3-3-3--3-2-|
G|--------2---2-------2-4-2---2---------2---2--|
D|-------------------------2-----2-------------|
A|---------------------------------------------|
E|---------------------------------------------|

E|-5-2---2-2------2-3-3-------3----|
B|--3-2--2----2--3---3----3--2-2-0-|
G|-------2---2--2---4-----4-4---2--|
D|---------4-----4-----5------5----|
A|----------4-----------5----------|
E|----------2-----------3----------|

        Hm
Среди связок
                         Fm#
В горле комом теснится крик,
       Hm
Но настала пора,
                      A
И тут уж кричи, не кричи.
       D
Лишь потом
                          A
Кто-то долго не сможет забыть,
         Hm
Как, шатаясь, бойцы
                   Fm#
Об траву вытирали мечи.

И как хлопало крыльями
Черное племя ворон,
Как смеялось небо,
А потом прикусило язык.
И дрожала рука
У того, кто остался жив,
И внезапно в вечность
Вдруг превратился миг.
И горел
Погребальным костром закат,
И волками смотрели
Звезды из облаков.
Как, раскинув руки,
Лежали ушедшие в ночь,
И как спали вповалку
Живые, не видя снов...
А "жизнь" - только слово,
Есть лишь любовь и есть смерть...
Эй! А кто будет петь,
Если все будут спать?
Смерть стоит того, чтобы жить,
А любовь стоит того, чтобы ждать...

  Видеоуроки          
8  
e------0-2-----5-2---------0---------0-2--------5-2---2-2------2-3-3-------3----
b-2-3-3-3-3-------3-----2--2---2-3-3-3-3--3-2----3-2--2----2--3---3----3--2-2-0-
g--------2---2-------2-4-2---2---------2---2----------2---2--2---4-----4-4---2--
d-------------------------2-----2-----------------------4-----4-----5------5----
a--------------------------------------------------------4-----------5----------
e--------------------------------------------------------2-----------3----------
 
         Hm
 В сети связок
                          F#m
 В горле комом теснится крик,
        Hm
 Но настала пора,
                       A
 И тут уж кричи, не кричи.
        D
 Лишь потом
                           A
 Кто-то долго не сможет забыть,
          Hm
 Как, шатаясь, бойцы
                    F#m
 Об траву вытирали мечи.
 
 И как хлопало крыльями
 Черное племя ворон,
 Как смеялось небо,
 А потом прикусило язык.
 И дрожала рука
 У того, кто остался жив,
 И внезапно в вечность
 Вдруг превратился миг.
 И горел
 Погребальным костром закат,
 И волками смотрели
 Звезды из облаков.
 Как, раскинув руки,
 Лежали ушедшие в ночь,
 И как спали вповалку
 Живые, не видя снов...
 А жизнь - только слово,
 Есть лишь любовь и есть смерть...
 Эй! А кто будет петь,
 Если все будут спать?
 Смерть стоит того, чтобы жить,
 А любовь стоит того, чтобы ждать...

  Видеоуроки          
7  
        Hm
Среди связок
                         Fm#
В горле комом теснится крик,
       Hm
Но настала пора,
                      A
И тут уж кричи, не кричи.
       D
Лишь потом
                          A
Кто-то долго не сможет забыть,
         Hm
Как, шатаясь, бойцы
                   Fm#
Об траву вытирали мечи.

И как хлопало крыльями
Черное племя ворон,
Как смеялось небо,
А потом прикусило язык.
И дрожала рука
У того, кто остался жив,
И внезапно в вечность
Вдруг превратился миг.
И горел
Погребальным костром закат,
И волками смотрели
Звезды из облаков.
Как, раскинув руки,
Лежали ушедшие в ночь,
И как спали вповалку
Живые, не видя снов...
А "жизнь" - только слово,
Есть лишь любовь и есть смерть...
Эй! А кто будет петь,
Если все будут спать?
Смерть стоит того, чтобы жить,
А любовь стоит того, чтобы ждать...

  Видеоуроки          
5  
E|------0-2-----5-2---------0---------0-2------|
B|-2-3-3-3-3-------3-----2--2---2-3-3-3-3--3-2-|
G|--------2---2-------2-4-2---2---------2---2--|
D|-------------------------2-----2-------------|
A|---------------------------------------------|
E|---------------------------------------------|

E|-5-2---2-2------2-3-3-------3----|
B|--3-2--2----2--3---3----3--2-2-0-|
G|-------2---2--2---4-----4-4---2--|
D|---------4-----4-----5------5----|
A|----------4-----------5----------|
E|----------2-----------3----------|

        Hm
Среди связок
                         F#m
В горле комом теснится крик,
       Hm
Но настала пора,
                      A
И тут уж кричи, не кричи.
       D
Лишь потом
                          A
Кто-то долго не сможет забыть,
         Hm
Как, шатаясь, бойцы
                   F#m
Об траву вытирали мечи.

И как хлопало крыльями
Черное племя ворон,
Как смеялось небо,
А потом прикусило язык.
И дрожала рука
У того, кто остался жив,
И внезапно в вечность
Вдруг превратился миг.

И горел
Погребальным костром закат,
И волками смотрели
Звезды из облаков.
Как, раскинув руки,
Лежали ушедшие в ночь,
И как спали вповалку
Живые, не видя снов...

А "жизнь" - только слово,
Есть лишь любовь и есть смерть...
Эй! А кто будет петь,
Если все будут спать?
Смерть стоит того, чтобы жить,
А любовь стоит того, чтобы ждать...

  Видеоуроки          
3  
E|------0-2-----5-2---------0---------0-2------|
B|-2-3-3-3-3-------3-----2--2---2-3-3-3-3--3-2-|
G|--------2---2-------2-4-2---2---------2---2--|
D|-------------------------2-----2-------------|
A|---------------------------------------------|
E|---------------------------------------------|

E|-5-2---2-2------2-3-3-------3----|
B|--3-2--2----2--3---3----3--2-2-0-|
G|-------2---2--2---4-----4-4---2--|
D|---------4-----4-----5------5----|
A|----------4-----------5----------|
E|----------2-----------3----------|

        Hm
Среди связок
                         Fm#
В горле комом теснится крик,
       Hm
Но настала пора,
                      A
И тут уж кричи, не кричи.
       D
Лишь потом
                          A
Кто-то долго не сможет забыть,
         Hm
Как, шатаясь, бойцы
                   Fm#
Об траву вытирали мечи.

И как хлопало крыльями
Черное племя ворон,
Как смеялось небо,
А потом прикусило язык.
И дрожала рука
У того, кто остался жив,
И внезапно в вечность
Вдруг превратился миг.

И горел
Погребальным костром закат,
И волками смотрели
Звезды из облаков.
Как, раскинув руки,
Лежали ушедшие в ночь,
И как спали вповалку
Живые, не видя снов...

А "жизнь" - только слово,
Есть лишь любовь и есть смерть...
Эй! А кто будет петь,
Если все будут спать?
Смерть стоит того, чтобы жить,
А любовь стоит того, чтобы ждать...

  Видеоуроки          
3  
        Hm
Среди связок
                         Fm#
В горле комом теснится крик,
       Hm
Но настала пора,
                      A
И тут уж кричи, не кричи.
       D
Лишь потом
                          A
Кто-то долго не сможет забыть,
         Hm
Как, шатаясь, бойцы
                   Fm#
Об траву вытирали мечи.

И как хлопало крыльями
Черное племя ворон,
Как смеялось небо,
А потом прикусило язык.
И дрожала рука
У того, кто остался жив,
И внезапно в вечность
Вдруг превратился миг.

И горел
Погребальным костром закат,
И волками смотрели
Звезды из облаков.
Как, раскинув руки,
Лежали ушедшие в ночь,
И как спали вповалку
Живые, не видя снов...

А "жизнь" - только слово,
Есть лишь любовь и есть смерть...
Эй! А кто будет петь,
Если все будут спать?
Смерть стоит того, чтобы жить,
А любовь стоит того, чтобы ждать...
D

← вар. → A

← вар. → Hm

← вар. →

  Видеоуроки          
0  
E|------0-2-----5-2---------0---------0-2------|
B|-2-3-3-3-3-------3-----2--2---2-3-3-3-3--3-2-|
G|--------2---2-------2-4-2---2---------2---2--|
D|-------------------------2-----2-------------|
A|---------------------------------------------|
E|---------------------------------------------|

E|-5-2---2-2------2-3-3-------3----|
B|--3-2--2----2--3---3----3--2-2-0-|
G|-------2---2--2---4-----4-4---2--|
D|---------4-----4-----5------5----|
A|----------4-----------5----------|
E|----------2-----------3----------|

        Hm
Среди связок
                         F#m
В горле комом теснится крик,
       Hm
Но настала пора,
                      A
И тут уж кричи, не кричи.
       D
Лишь потом
                          A
Кто-то долго не сможет забыть,
         Hm
Как, шатаясь, бойцы
                   F#m
Об траву вытирали мечи.

И как хлопало крыльями
Черное племя ворон,
Как смеялось небо,
А потом прикусило язык.
И дрожала рука
У того, кто остался жив,
И внезапно в вечность
Вдруг превратился миг.
И горел
Погребальным костром закат,
И волками смотрели
Звезды из облаков.
Как, раскинув руки,
Лежали ушедшие в ночь,
И как спали вповалку
Живые, не видя снов...
А "жизнь" - только слово,
Есть лишь любовь и есть смерть...
Эй! А кто будет петь,
Если все будут спать?
Смерть стоит того, чтобы жить,
А любовь стоит того, чтобы ждать...

  Видеоуроки          
0  
Легенда

E|------0-2-----5-2---------0---------0-2------|
B|-2-3-3-3-3-------3-----2--2---2-3-3-3-3--3-2-|
G|--------2---2-------2-4-2---2---------2---2--|
D|-------------------------2-----2-------------|
A|---------------------------------------------|
E|---------------------------------------------|

E|-5-2---2-2------2-3-3-------3----|
B|--3-2--2----2--3---3----3--2-2-0-|
G|-------2---2--2---4-----4-4---2--|
D|---------4-----4-----5------5----|
A|----------4-----------5----------|
E|----------2-----------3----------|

        Hm
Среди связок
                         F#m
В горле комом теснится крик,
       Hm
Но настала пора,
                      A
И тут уж кричи, не кричи.
       D
Лишь потом
                          A
Кто-то долго не сможет забыть,
         Hm
Как, шатаясь, бойцы
                   F#m
Об траву вытирали мечи.

И как хлопало крыльями
Черное племя ворон,
Как смеялось небо,
А потом прикусило язык.
И дрожала рука
У того, кто остался жив,
И внезапно в вечность
Вдруг превратился миг.

И горел
Погребальным костром закат,
И волками смотрели
Звезды из облаков.
Как, раскинув руки,
Лежали ушедшие в ночь,
И как спали вповалку
Живые, не видя снов...

А "жизнь" - только слово,
Есть лишь любовь и есть смерть...
Эй! А кто будет петь,
Если все будут спать?
Смерть стоит того, чтобы жить,
А любовь стоит того, чтобы ждать...


  Видеоуроки          

Интернет-ресурс «Три аккорда» предназначен для пользователей старше 18 лет.

2011—2014 «Три аккорда» | Группа ВКонтакте

© Уважаемые посетители сайта, помните об авторских правах: авторские права на предоставленную информацию принадлежат правообладателям.

Размещенные видео уроки вставлены на сайт с помощью официального сервиса вставки Ютуба с каналов преподавателей и школ.
Тексты песен размещаются на сайте согласно ст. 1274 ГК РФ (ч.1 пп. 1 и 2) в учебных целях.
Аккорды к песням публикуются на сайте согласно ст. 1274 (ч.3) и ст. 1274 ГК РФ (ч.1 пп. 1 и 2) в учебных целях.
По вопросам связанными с авторскими и смежными правами пишите на: 3akk.ru@gmail.com.

Яндекс.Метрика