Агата Кристи «Три аккорда» — тексты песен и аккорды

А на тебе , как на войне

27   Транспонирование:
Am        G        C         E     Am
Ляг, отдохни, и послушай, что я скажу:
Я терпел, но сегодня я ухожу.
Я сказал: успокойся и рот закрой.
Вот и все, до свидания, черт с тобой.

Am         G             C           E            Am
   Я на тебе, как на войне, а на войне, как на тебе.
   Но я устал, окончен бой, беру портвейн, иду домой.
   Окончен бой, зачах огонь и не осталось ничего.
   А мы живем и нам с тобою повезло назло.

Боль, это боль, как ее ты ни назови.
Это страх, там где страх, места нет любви.
Я сказал: успокойся и рот закрой.
Вот и все, до свидания, черт с тобой.

Riff 1:

 Am    G      C7       E        Am        G        C7       E
e|-0------3-1-0--------------------0--------3-1-0--------0-4-5-|
B|---1-0--------3-1-3-0--0-1-0-------1-0-----------3-1-3-------|
G|2------0---------------------2----------0--------------------|
D|-------------------------------2-----------------------------|
A|-------------------------------------------------------------|
E|-------------------------------------------------------------|

Riff 2:

 Am             G              C                E
e|-------------------------------------------------------------|
B|-------------------------------------------------------------|
G|-------------------------------------------------------------|
D|------------------------------0-----0------0-2-4---2-4-2-0---|
A|-2---0-2---2-1-0-----0------0---0-2------4-------4---------4-|
E|---2-----2-------2-4----2-4----------------------------------|

Chord Progression:

Версия :
 Am G Am E

Припев:
 Am G C E

Am

← вар. →
G

← вар. →
C

← вар. →
E

← вар. →
C7

← вар. →
1   Транспонирование:
Am        G        C         E     Am
Ляг, отдохни, и послушай, что я скажу:
Я терпел, но сегодня я ухожу.
Я сказал: успокойся и рот закрой.
Вот и все, до свидания, черт с тобой.

Am         G             C           E            Am
   Я на тебе, как на войне, а на войне, как на тебе.
   Но я устал, окончен бой, беру портвейн, иду домой.
   Окончен бой, зачах огонь и не осталось ничего.
   А мы живем и нам с тобою повезло назло.

Боль, это боль, как ее ты ни назови.
Это страх, там где страх, места нет любви.
Я сказал: успокойся и рот закрой.
Вот и все, до свидания, черт с тобой.

Riff 1:

 Am    G      C7       E        Am        G        C7       E
e|-0------3-1-0--------------------0--------3-1-0--------0-4-5-|
B|---1-0--------3-1-3-0--0-1-0-------1-0-----------3-1-3-------|
G|2------0---------------------2----------0--------------------|
D|-------------------------------2-----------------------------|
A|-------------------------------------------------------------|
E|-------------------------------------------------------------|

Riff 2:

 Am             G              C                E
e|-------------------------------------------------------------|
B|-------------------------------------------------------------|
G|-------------------------------------------------------------|
D|------------------------------0-----0------0-2-4---2-4-2-0---|
A|-2---0-2---2-1-0-----0------0---0-2------4-------4---------4-|
E|---2-----2-------2-4----2-4----------------------------------|

Chord Progression:

Версия :
 Am G Am E

Припев:
 Am G C E

Am

← вар. →
G

← вар. →
C

← вар. →
E

← вар. →
C7

← вар. →

Агата Кристи ТОП-5 песен

А на войне как на войне
Как на войне
Сказочная тайга
Опиум для никого
Ковер-вертолет

«Три аккорда» — музыкальный сайт для гитаристов: аккорды, видеоуроки.

18+ Интернет-ресурс «Три аккорда» предназначен для пользователей старше 18 лет.

Предупреждение: тексты некоторых песен могут содержать нецензурную брань.

2011—2014 «Три аккорда» | Группа ВКонтакте

© Уважаемые посетители сайта, помните об авторских правах: авторские права на предоставленную информацию принадлежат правообладателям.

Размещенные видео уроки вставлены на сайт с помощью официального сервиса вставки Ютуба с каналов преподавателей и школ.
Аккорды и тексты песен публикуются на сайте согласно ст. 1274 (ч.3) и ст. 1274 ГК РФ (ч.1 пп. 1 и 2) в учебных целях, иное использование их (в том числе коммерческое) не допускается.
По вопросам связанными с авторскими и смежными правами пишите на 3akk.ru@gmail.com.

Яндекс.Метрика